L’assaut des regards

Kyo : L’assaut des regards
Intro :

|------8---------8---|-----8-------8---|------8-------8---|------8---------8-----|
|-10-8---8-10--8---8-|-8-------8-------|------------------|-8--------8-----------|
|--------------------|--10--10--10--10-|-10-9---9-10-9--9-|---10---10---10----10-|
|--------------------|-----------------|------------------|----------------------|
|--------------------|-----------------|------------------|----------------------|
|--------------------|-----------------|------------------|----------------------|

  Am                   F                 Dm                 F     

|------8---------8---|-----8-------8---|------8-------8---|------8---------8-----|
|-10-8---8-10--8---8-|-8-------8-------|------------------|-8--------------------|
|--------------------|--10--10--10--10-|-10-9---9-10-9--9-|---10---10-10-9----9--|
|--------------------|-----------------|------------------|----------------------|
|--------------------|-----------------|------------------|----------------------|
|--------------------|-----------------|------------------|----------------------|

Am                F                  Dm 

 Capturer l'horizon où tout semble Désert
                   F                     Am

Il faut savoir se taire pour en tirer le so
                     F                C       F

Je ne saurais vous dire si la lumière est là
                     Am
Allez savoir pourquoi

(L'intro reprend sur le refrain)
    F          Dm
Si loin de ma chair
    F     Am
De nos repères
       F            Dm
Aussi grand qu'on espère
    F         Am
De guerre en guerre

Am                     F                  Dm
 Tous ces écrans de fond à l'assaut des regards
                 F                        Am
On a peine à y croire mais c'est ça la raison
                      F                     Dm
Aux rivières de Passion qui traversent nos terres
                  F                       Am
J'irai creuser le fond jusque dans la lumière

Refrain (avec intro) :

    F          Dm
Si loin de ma chair
    F     Am
De nos repères
       F            Dm
Aussi grand qu'on espère
    F         Am
De guerre en guerre

Instru : 

Am   G#   F   C   Am   F   Dm   G   C   G#   F  C  Am  F  Dm  F

(Je ne suis pas sûr de tous les accords, si vous trouvez les vrais

n'hésitez pas à corriger)

Am   F          Dm
 Si loin de ma chair
    F     Am
De nos repères
       F            Dm
Aussi grand qu'on espère
    F         Am (laisser sonner)
De guerre en guerre
Anúncios

Deixe um comentário

Preencha os seus dados abaixo ou clique em um ícone para log in:

Logotipo do WordPress.com

Você está comentando utilizando sua conta WordPress.com. Sair / Alterar )

Imagem do Twitter

Você está comentando utilizando sua conta Twitter. Sair / Alterar )

Foto do Facebook

Você está comentando utilizando sua conta Facebook. Sair / Alterar )

Foto do Google+

Você está comentando utilizando sua conta Google+. Sair / Alterar )

Conectando a %s